Hello Guest! - Login or Register
   
Learn And Master The Guitar

I Got Mine by The Black Keys Rating: n/a
Submitted by: J Play Tabs Rate Tab

#----------------------------------PLEASE NOTE---------------------------------#
#This file is the author's own work and represents their interpretation of the #
#song. You may only use this file for private study, scholarship, or research. #
#---------------- http://www.jplay.com.au/JSite/GuitarTab.aspx ----------------#

Artist: The Black Keys
Song: I Got Mine
Released On: Attack & Release

Transcribed by: J Play Tabs (www.jplay.com.au)

To request other tracks you'd like to learn, go to the J Play forum
@ http://www.jplay.com.au/OnlineCommunity/

Transcribed: 10 April 2008

Notes: They jam out a little during the middle of the song - that part isn't
tabbed, just improv a bit.

      h - hammer on 
      p - pull off 
      b - bend string up
      r - release bend
      / - slide up
      \ - slide down
      ~ - vibrato 
      t - tap (with strumming hand)
      x - muted, struck string
     < > - harmonic

INTRO:
E-|---------------------------|J|-
B-|---------------------------| |-
G-|---------------------------|P|-
D-|-9---9-8-7---7-6-5---4--3--|L|-
A-|-9---9-8-7---7-6-5---4--3--|A|-
E-|-7---7-6-5---5-4-3---2--1--|Y|-

MAIN / VERSE RIFF:
E-|-------------------------|-------------------------|J|-
B-|-------------------------|-------------------------| |-
G-|-------------------------|-------------------------|P|-
D-|-----------------5-7-5---|-------------------------|L|-(slight palm mute 
A-|---7-5-7---7-5-7-------7-|---7-5-7---7-5-7-5-------|A|- during verses)
E-|-0-------0---------------|-0-------0---------3-5-3-|Y|-

CHORUS:
E-|--------------------|-	-|--------------------|J|-
B-|----------------8~~-|-	-|----------------8~~-| |-
G-|--------------------|-	-|--------------------|P|-
D-|---2---5----7-------|-	-|---2---7----5-------|L|-
A-|---2---5----7-------|-(x 3)	-|---2---7----5-------|A|-
E-|-0---3----5---------|-	-|-0---5----3---------|Y|-

OUTRO:
E-|------------------------------|J|-
B-|------------------------------| |-
G-|------------------------------|P|-
D-|-9---9-8-7---7-6-5---4--3---2-|L|-
A-|-9---9-8-7---7-6-5---4--3---2-|A|-
E-|-7---7-6-5---5-4-3---2--1---0-|Y|-



Transcribed by: J Play Tabs (www.jplay.com.au)
									
Learn And Master The Guitar
Home Privacy Policy Contact Us
© 2004-2008 :: Site Designed by Fenton Software Pty Ltd
ACN 107 868 324 ABN 95 107 868 324
v3.13