Hello Guest! - Login or Register
   
Learn And Master The Guitar

Process This by Powderfinger Rating: n/a
Submitted by: Oz Tabs Rate Tab

#----------------------------------PLEASE NOTE---------------------------------#
#This file is the author's own work and represents their interpretation of the #
#song. You may only use this file for private study, scholarship, or research. #
#--------------------- www.ozmusic-central.com.au/oztabs ----------------------#

Artist: Powderfinger
Song: Process This
Released On: Fingerprints - The Best Of Powderfinger (Track 13)

Transcribed by Paul @ OzTabs (oztabs@bigpond.com)
www.ozmusic-central.com.au/oztabs

To request other Australian Guitar Tab go to the Oz Tabs forum
@ http://oztabs.proboards6.com/index.cgi

Transcribed: 27 June 2005

Notes: This track has been requested a couple times, so here
it is. Play along to the song to see how all the parts fit together.
Comments and corrections welcome.

VERSES: (dirty distortion)
E-|---------------------------|---------------------------|-
B-|---------------------------|---------------------------|-
G-|---------------------------|---------------------------|-
D-|-7---5/7---5/7---5/7-10-10-|---------------------------|-
A-|-5---3/5---3/5---3/5-8--8--|-5---3/5---3/5/8-8-8-8-8-8-|-
E-|---------------------------|-3---1/3---1/3/6-6-6-6-6-6-|-

PRE CHORUS:
E-|----------------------------------------------|-
B-|----------------------------------------------|-
G-|-11~~-------11~~------------------------------|-
D-|-12~~-------12~~------------------------------|-
A-|--------------------5---3/5---3/5/8-8-8-8-8-8-|-
E-|--------------------3---1/3---1/3/6-6-6-6-6-6-|-

CHORUS CHORDS:
    F5   C5
E-|----------|-
B-|----------|-
G-|-10---5---|-
D-|-10---5---|-
A-|-8----3---|-
E-|----------|-

SOLO RHYTHYM:
E-|---------------------------|---------------------------|-
B-|---------------------------|---------------------------|-
G-|---------------------------|---------------------------|-
D-|-7---5/7---5/7---5/7-10-10-|---------------------------|-x2
A-|-5---3/5---3/5---3/5-8--8--|-5---3/5---3/5/8-8-8-8-8-8-|-
E-|---------------------------|-3---1/3---1/3/6-6-6-6-6-6-|-

E-|---------------------------------|-
B-|---------------------------------|-
G-|-12-12---10-10---8-8---7-7---7-5-|-
D-|-12-12---10-10---8-8---7-7---7-5-|-
A-|-10-10---8--8----6-6---5-5---5-3-|-
E-|---------------------------------|-

SOLO LEAD:
E-|----------------------------------------------------------------------------|-
B-|----------------------------------------------------------------------------|-
G-|----------------------------------------------------10-12-12br-12br-12br-10-|-
D-|-----10-10-12~~-----10-10-12/15~~----14-14--10-12---------------------------|-
A-|-12--------------12---------------------------------------------------------|-
E-|----------------------------------------------------------------------------|-

E-|-10----13----15------10----13----15------------------------------|-
B-|-12b14-15b17-17b19---12b14-15b17-17b19-----15------13------11----|-
G-|-------------------------------------------17b19---15b17---13b15-|-
D-|-----------------------------------------------------------------|-
A-|-----------------------------------------------------------------|-
E-|-----------------------------------------------------------------|-

E-|----------------10----------------------------10------------------------------|-
B-|-12h13p12\10------------------------------------------------------------------|-
G-|-------------12----12--10h12---12h13p12\10------------------------------------|-
D-|-------------------------------------------12----12--10h12-----10h12-10~~~~~--|-
A-|------------------------------------------------------------------------------|-
E-|------------------------------------------------------------------------------|-

									
Learn And Master The Guitar
Home Privacy Policy Contact Us
© 2004-2008 :: Site Designed by Fenton Software Pty Ltd
ACN 107 868 324 ABN 95 107 868 324
v3.13